terug naar de liedtekstenindex
kies  niets  voor alleen tekst of voor toonsoort majeur:

Het Is Een Nacht
Guus Meeuwis


Je vraagt of ik zin heb in een sigaret
’t Is twee uur ’s nachts, we liggen op bed
In een hotel in een stad, waar niemand ons hoort
Waar niemand ons kent en niemand ons stoort
Op de vloer, ligt een lege fles wijn
En kledingstukken die van jouw of mij kunnen zijn
Een schemering, de radio zacht
En deze nacht heeft alles - , wat ik van een nacht verwacht

Het is een nacht, die je normaal alleen in films ziet
Het is een nacht, die wordt bezongen in het mooiste lied
Het is een nacht waarvan ik dacht dat ik hem nooit beleven zou
Maar vannacht beleef ik hem met jou, oh oh

Ik ben nog wakker en ik staar naar het plafond
En ik denk aan de dag lang geleden begon
Het zomaar er vandoor gaan met jou
Niet weten waar de reis eindigen zou
Nu lig ik hier in een wildvreemde stad
En heb net de nacht van mijn leven gehad
Maar helaas er komt weer licht door de ramen
Hoewel voor ons de wereld - , vannacht heeft stil gestaan

Het is een nacht, die je normaal alleen in films ziet
Het is een nacht, die wordt bezongen in het mooiste lied
Het is een nacht waarvan ik dacht dat ik hem nooit beleven zou
Maar vannacht beleef ik hem met jou, oh oh

Maar een lied blijft slechts bij woorden
Een film is in scene gezet
Maar deze nacht met jou is levensecht

Het is een nacht, die je normaal alleen in films ziet
Het is een nacht, die wordt bezongen in het mooiste lied
Het is een nacht waarvan ik dacht dat ik hem nooit beleven zou
Maar vannacht beleef ik hem met jou, oh oh

(eerste 2 regels acapella)
Het is een nacht, die je normaal alleen in films ziet
Het is een nacht, die wordt bezongen in het mooiste lied
Het is een nacht waarvan ik dacht dat ik hem nooit beleven zou
Maar vannacht beleef ik hem met jou, oh oh

Ja vannacht beleef ik hem met jou oh oh
En ik hou alleen nog maar van jou oh oh
En ik hou alleen nog maar van jou


==================================================

Intro (Em-C2-G-D Em-C2-G-D):

E|---------0-------|---------0--|-----------3-----|-------0-2-|
B|-------0---0-----|-------3----|---------0---0---|-----3-----|
G|-----0-------0---|-----0------|-----0---------0-|---2-------|
D|---2-------------|---2--------|---0---0---------|-0---------|
A|-----------------|-3----------|-----------------|-----------|
E|-0---------------|------------|-3---------------|-----------|

E|----------0-----|---------0-|-----------3-----|---------2-|
B|-------0----0---|-------3---|---------0---0---|-----3-----|
G|-----0--------0-|-----0-----|-----0---------0-|---2---2---|
D|---2------------|---2-------|---0---0---------|-0---------|
A|----------------|-3---------|-----------------|-----------|
E|-0--------------|-----------|-3---------------|-----------|



terug naar de liedtekstenindex
2015-2019 © Jan Willems, Veghel